Page 1 of 1

It don't mean a thing intro

PostPosted: Sun May 07, 2006 3:20 am
by texasrockabillyrebel
I was wondering if anyone knows the intro the way Django played it. I just listened to it for the first time in probably 2 years and found my intro is much different. Not that thats bad but I was under the assumption that the old man and I were on the same page.

PostPosted: Sun May 07, 2006 10:27 am
by Rookie
I'm not quite shure but this sound ok


-10-----8-------6-----5-------------------------------------
-11-----10------8-----7------------------------------------
--------------------------------------------------------------
--------------------------------------------------------------
--------------------------------------------------------------
--------------------------------------------------------------
--------------------------------------------------------------



GreetZ Rookie

PostPosted: Tue Jun 13, 2006 10:50 pm
by texasrockabillyrebel
I forgot I posted this. Here's what I came up with if anybody cares:

E--10--13--11--10--------------------------------
B--10--13--11--10-------5-5--4-4--4--3--3-2---
G--10--14--12--11-------5-5--4-4--4--3--3-2---
D--------------------------4-4--3-3--3--2--2-1---
A--------------------------5-5--4-4--4--3--3-2---
E---------------------------------------------------

The first part is the same as what Rookie wrote just in a different position.

PostPosted: Thu Jun 29, 2006 9:00 pm
by texasrockabillyrebel
I screwed up writing this. That first chord is supposed to be a Gm on the 15th fret not the 10th. Sorry about that.